PortalPortal  InícioInício  FAQFAQ  BuscarBuscar  Registrar-seRegistrar-se  Conectar-se  

Compartilhe|

[Começando a Tocar]Notações usadas em tablaturas

Ver o tópico anterior Ver o tópico seguinte Ir em baixo
AutorMensagem
Douglanilo
avatar
Mestre
Mestre

Masculino Postagens : 959
Data de inscrição : 02/04/2009


Ver perfil do usuário http://www.twevergrand.com
MensagemAssunto: [Começando a Tocar]Notações usadas em tablaturas Dom Abr 05, 2009 10:00 am


Notações usadas em tablaturas
Além dos números que apenas indicam qual corda deve ser ferida em qual casa (traste) existem algumas letras e simbolos comumente usadas para notar determinadas técnicas. Essas notações podem variar um pouco de autor para
autor mas as mais comuns são:

    h - fazer um hammer-on
    p - fazer um pull-off
    b - fazer um bend para cima
    r - soltar o bend
    / - slide para cima (pode ser usado s)
    \ - slide para baixo (pode ser usado s)
    ~ - vibrato (pode ser usado v)
    t - tap
    x - tocar a nota abafada (som percusivo)

Notação de Hammer-Ons
Um hammer-on consiste em martelar com um dedo da
mão esquerda uma corda em um traste fazendo soar a nota sem o auxílio da mão direita.
E-----------------------------------------------------
B-----------------------------------------------------
G-----------------------------------------------------
D-----------------------------------------------------
A---------5h7-----------5h7---------------------------
E---0--0----------0--0--------------------------------
No exemplo acima após ferir a corda grossa solta duas vezes o músico deverá ferir a segunda corda na quinta casa e imediata e vigorosamente apertar a mesma corda (segunda) duas casas a frente (sétimo traste), Fazendo a corda soar apenas com a martelada e sem auxílio da mão direita. Depois repita
a sequência.


Notação de Pull-Offs
Pull-Offs são de certa forma o inverso de um hammer-on e consistem em soltar rapidamente uma corda fazendo com que a mesma soe solta(ou apertada em um traste anterior).
E----3p0-----------------------------------------------
B---------3p0------------------------------------------
G--------------2p0-------------------------------------
D-------------------2----------------------------------
A------------------------------------------------------
E------------------------------------------------------
No exemplo acima o primeiro pull-off na corda mais fina consiste em ferir a corda apertada no terceiro traste e soltá-la rapidamene para que soe solta. Posteriormente um pull-off identico é feito uma corda acima e assim por diante. Note que o terceiro pull off é feito a partir do segundo traste. Hammer-ons e pull-offs costumam ser usados em conjunto como indicado abaixo:
E------------------------------------------------------
B------------------------------------------------------
G---2h4p2h4p2h4p2h4p2h4p2------------------------------
D------------------------------------------------------
A------------------------------------------------------
E------------------------------------------------------
Neste caso a corda deve ser ferida na segunda casa, imediatamente apertada na quarta casa (hammer-on), imediatamente solta da quarta casa (soando novamente na segunda, pull-off), novamente apertada na quarta e assim por diante.
Note que a mão direita do música só irá ferir a primeira nota... todas as outras são
tocadas apenas com os hammers-ons e pull-offs da mão esquerda no braço.


Notação de bends
Um bend consiste em empurrar uma corda para cima aumentando a tensão e consequentemente gerando uma nota mais aguda. Quanto mais empurrada for a corda maior será o efeito. Um número é usado para indicar o quanto a nota deve
ser aumentada.
E------------------------------------------------------
B------7b9---------------------------------------------
G------------------------------------------------------
D------------------------------------------------------
A------------------------------------------------------
E------------------------------------------------------
No exemplo acima a corda (re) deve ser tocada no sétimo traste e empurrada para cima até que soe mais aguda como se estivesse apertada no nono traste (um tom acima). Note que o dedo do musico continuara na sétima casa. O bend
pode também ser indicado entre parênteses como 7b(9).

E------------------------------------------------------
B------7b9--9r7----------------------------------------
G------------------------------------------------------
D------------------------------------------------------
A------------------------------------------------------
E------------------------------------------------------
No exemplo acima é indicado depois do bend inicial que ele deve ser soltado. O músico deve ferir a corda na sétima casa, fazer um bend de um tom inteiro (equivalente a subir duas casas), ferir novamente a corda e soltar o bend (de forma que a corda volte a sua posição e nota originais).Outros exemplos: bends podem ser de meio tom (7r8, equivalente a uma casa), de um quarto de tom (7r7.5, equivalente a meia casa) e assim por diante. É comum não ser indicado o valor (7b por exemplo) e nestes casos é preciso ouvir a música para saber o valor do bend.

Notação de Slides
Um slide consiste em fazer deslizar um dedo da mão
esquerda pelo braço enquanto uma corda soa gerando uma variação do tom.
E------------------------------------------------------
B------7/9---------------------------------------------
G------------------------------------------------------
D------------------------------------------------------
A------------------------------------------------------
E------------------------------------------------------
O exemplo acima indica que a corda deve ser ferida
na sétima casa e imediatamente o dedo que aperta a corda nesta casa deve deslizar para a nona casa enquanto a nota continua soando (aumentando portanto um tom).[/size]
[size=9]Não necessariamente o início e o fim de um slide
precisam ser indicados:
E------------------------------------------------------
B------/7--7\------------------------------------------
G------------------------------------------------------
D------------------------------------------------------
A------------------------------------------------------
E------------------------------------------------------
Neste caso a nota deve inicialmente ser ferida em alguma das primeiras casas e deslizada até a sétima casa, posteriormente sendo deslizada de volta para as primeiras casas. Novamente é necessário conhecer a música que se deseja tocar de forma a saber o tamanho do slide. Vários slides podem ser usados seguidos como indicado abaixo. Apenas a primeira nota precisa ser ferida.
E-------------------------------------------------------
B------7/9/11\9\7\6\7-----------------------------------
G-------------------------------------------------------
D-------------------------------------------------------
A-------------------------------------------------------
E-------------------------------------------------------

Notação de Vibrato
O vibrato é o efeito de variação de tom conseguido com a alavanca ou mesmo através de pressão variável do dedo sobre a corda no braço do instrumento (vide músicos de blues).
E------------------------------------------------------
B------------------------------------------------------
G------------------------------------------------------
D-------2--5~------------------------------------------
A----3-------------------------------------------------
E------------------------------------------------------
Neste caso a última nota deve sofrer vibrato. É necessário conhecer a música em questão para saber como este vibrato deve ser efetuado.

Notação de Tap
Tap ou tapping consiste em fazer soar notas feridas com a mão direita apertando as cordas nos trastes. É técnica geralmente usada por guitarristas rápidos como Eddie Van Hallen entre outros. A indicação de que uma nota deve ser tocada como tap consiste apenas em acrescentar a letra t à nota correspondente. Geralmente são efetuadas na parte mais interna do braço do instrumento.
E------------------------------------------------------
B----13t-----------------------------------------------
G---------12t------------------------------------------
D--------------12t-------------------------------------
A------------------------------------------------------
E------------------------------------------------------
No exemplo acima as notas devem ser feridas pela mão direita do músico simplesmente apertando as cordas vigorosamente nos trastes indicados.

Outras notações
Notações extras necessárias em determinadas músicas e/ou técnicas são comuns mas não padronizadas, sendo geralmente explicadas na própria tablatura em texto anexo. Variações das notações acima também são bastante comuns.


Última edição por Douglanilo em Sab Ago 15, 2009 2:13 pm, editado 1 vez(es)
Voltar ao Topo Ir em baixo
Raygodness
avatar
Veterano
Veterano

Masculino Postagens : 404
Data de inscrição : 04/04/2009
Localização : bragança paulista - SP
Emprego/lazer : computadores
Mensagem Pessoal : O que vem por trás, não é mole.


Ver perfil do usuário
MensagemAssunto: Re: [Começando a Tocar]Notações usadas em tablaturas Qua Abr 15, 2009 5:02 pm

Boiando denovo!
Voltar ao Topo Ir em baixo
Douglanilo
avatar
Mestre
Mestre

Masculino Postagens : 959
Data de inscrição : 02/04/2009


Ver perfil do usuário http://www.twevergrand.com
MensagemAssunto: Re: [Começando a Tocar]Notações usadas em tablaturas Qua Abr 15, 2009 11:21 pm

Para de boiar, leia do primeiro até o final que você entende.

_________________________________________
Voltar ao Topo Ir em baixo
Raygodness
avatar
Veterano
Veterano

Masculino Postagens : 404
Data de inscrição : 04/04/2009
Localização : bragança paulista - SP
Emprego/lazer : computadores
Mensagem Pessoal : O que vem por trás, não é mole.


Ver perfil do usuário
MensagemAssunto: Re: [Começando a Tocar]Notações usadas em tablaturas Sab Maio 23, 2009 2:24 pm

coisinha dificil... to tentando...
Voltar ao Topo Ir em baixo
Douglanilo
avatar
Mestre
Mestre

Masculino Postagens : 959
Data de inscrição : 02/04/2009


Ver perfil do usuário http://www.twevergrand.com
MensagemAssunto: Re: [Começando a Tocar]Notações usadas em tablaturas Sab Maio 23, 2009 3:59 pm

Normal, você aprende as coisas com o tempo.

_________________________________________
Voltar ao Topo Ir em baixo
zecomeia
avatar
RPG Maker
RPG Maker

Masculino Postagens : 51
Data de inscrição : 20/08/2009


Ver perfil do usuário http://colmeia-do-ze.blogspot.com/
MensagemAssunto: Re: [Começando a Tocar]Notações usadas em tablaturas Sex Ago 21, 2009 8:41 pm

Gostei do tutorial, bem prático.

Parabens.

Mas tenho uma pergunta...
No vibrato, você disse que pode consegui-lo atravez de pressão variavel do
dedo ou pela alavanca, no caso do dedo a intenção e alterar entre o
natural do traste e deixa-la mais aguda, e com a alavanca é o
contrario(afroxar a corda), como saber qual dos dois fazer pela
tablatura?Existe alguma notação ou só conhecendo a música mesmo?

Vlw cara, T+ e parabens mais uma vez


Última edição por zecomeia em Sab Ago 22, 2009 12:25 am, editado 1 vez(es)
Voltar ao Topo Ir em baixo
Douglanilo
avatar
Mestre
Mestre

Masculino Postagens : 959
Data de inscrição : 02/04/2009


Ver perfil do usuário http://www.twevergrand.com
MensagemAssunto: Re: [Começando a Tocar]Notações usadas em tablaturas Sex Ago 21, 2009 9:17 pm

Olá zecomeia,

Essa pergunta não sei responder muito bem.

Se na tablatura for uma nota com o vibrato, você pode fazer com o dedo, pois seria mais prático ou rápido (ou ambos), mas se for contínuo, seria melhor usar a alavanca.

Mas na minha opinião é por causa que algumas guitarras não possuem a alavanca ou não tem suporte. Então, fica opicional mesmo, a não ser que seja visto um vídeo para ser 'igual'.

Até o/

_________________________________________
Voltar ao Topo Ir em baixo
zecomeia
avatar
RPG Maker
RPG Maker

Masculino Postagens : 51
Data de inscrição : 20/08/2009


Ver perfil do usuário http://colmeia-do-ze.blogspot.com/
MensagemAssunto: Re: [Começando a Tocar]Notações usadas em tablaturas Sab Ago 22, 2009 12:27 am

Bom, mesmo assim valeu ^^

To meio enferrujado no violão/guitarra mas vou ver se volto a tocar, e aprovietar a ajuda do pessoal do forum pra aprender coisas novas, to pensando até em aprender a tocar teclado...

Flw
Voltar ao Topo Ir em baixo
Conteúdo patrocinado




MensagemAssunto: Re: [Começando a Tocar]Notações usadas em tablaturas

Voltar ao Topo Ir em baixo

[Começando a Tocar]Notações usadas em tablaturas

Ver o tópico anterior Ver o tópico seguinte Voltar ao Topo
Página 1 de 1

Permissão deste fórum:Você não pode responder aos tópicos neste fórum
The World of EverGrand :: Desenvolvimento :: Sinfonia de Músicos-